money4music.com





Make Money Uploading TABs, Chords, Lyrics and Scores


Mary J. Blige
Mr. Wrong
Guitar




Report
Register to upload music/lyrics and to make some money.

Please rate out of 5 (where 5 is amazing and 1 is terrible).

Bass Tab
-----------------------------|
-----------------------------|
-----------------------------|
---------------------3h5-3---|
-3-5-6---------------------1-|
-------6-1-2-3-4-6-4---------|

Guitar Chords and Tab
 Cm    Bb    Gm    Ab
-3-----6-----3-----4---------|
-4-----6-----3-----4---------|
-5-----7-----3-----5---------|
-5-----8-----5-----6---------|
-3-----8-----5-----6---------|
-------6-----3-----4---------|


Make MoneySearchLoginRegisterContact