money4music.com





Make Money Uploading TABs, Chords, Lyrics and Scores


Harry Styles
Canyon Moon
Guitar




Report
Register to upload music/lyrics and to make some money.

Please rate out of 5 (where 5 is amazing and 1 is terrible).

[Intro]

e|--0--0--0--0---0---0---0--0-----0--0--0--0---0--0--------------|
B|--10-10-10-10--12--10--8--7-----7--7--7--8--10--7--------------|
G|--9--9--9--9---11--9---7--7-----7--7--7--7---9--7--------------| x2
D|--0--0--0--0---0---0---0--0-----0--0--0--0---0--0--------------|
A|--0--0--0--0---0---0---0--0-----0--0--0--0---0--0--------------|
E|--0--0--0--0---0---0---0--0-----0--0--0--0---0--0--------------|



[Verse]

  D
 


[Chorus]


e|----0------------0-----------------------------------------------------------|
B|----0------------0-----------------------------------------------------------|
G|----6------------1-----------------------------------------------------------|
D|----7------------2-----------------------------------------------------------|
A|----X------------X-----------------------------------------------------------|
E|----7------------2-----------------------------------------------------------|

e|--0--0--0--0---0---0---0--0-----0--0--0--0---0--0-------------------------|
B|--10-10-10-10--12--10--8--7-----7--7--7--8--10--7-------------------------|
G|--9--9---9--9---11-9---7--7-----7--7--7--7---9--7-------------------------| x2
D|--0--0---0--0---0--0---0--0-----0--0--0--0---0--0-------------------------|
A|--0--0---0--0---0--0---0--0-----0--0--0--0---0--0-------------------------|
E|--0--0---0--0---0--0---0--0-----0--0--0--0---0--0-------------------------|

[Outro]

I'm Going home Im going..

e|----2---------x---------x---------x-------------------------------------|
B|----3---------3---------3---------3-------------------------------------|
G|----2---------2---------2---------0-------------------------------------|
D|----0---------x---------0---------0-------------------------------------|
A|--------------4---------0---------2-------------------------------------|
E|------------------------3---------0-------------------------------------|


Make MoneySearchLoginRegisterContact