money4music.com





Make Money Uploading TABs, Chords, Lyrics and Scores


Ed Sheeran
Drunk
Guitar




Report
Register to upload music/lyrics and to make some money.

Please rate out of 5 (where 5 is amazing and 1 is terrible).

Tune EADGBD
Guitar Tab

-|--0--0--|--0--0--|--0--0--|--0--0--|
-|-0--0--0|-0--0--0|-0--0--0|-0--0--0|
-|0-------|0-------|0-------|0-------|
-|---0--0-|---2--2-|--------|---0--0-|
-|--------|--------|---3--3-|--------|
-|--------|--------|--------|--------|

With delay
-----|----------------------------------
-----|----------------------------------
-4-4-|-4-4-------------4-4-7------------
-5-5-|-5-5-4-5-5-2-2-4-5-5-5------------
-----|-----5-7-7-3-3-5------------------
-----|----------------------------------

Bridge (I've omitted repeated notes and mutes)
-----------------|---------------------
-----------------|---------------------
-----------------|---------------------
-5-x-4-x---------|---------x-5---------
-7-x-5-x-2-x-3-x-|-x-5-x-7-x-3---------
---------3-x-5-x-|-x-3-x-5-------------

-----------------|-x-5-x-7-x-9------------
-8-x-7-x-7-x-5-x-|-x-3-x-5-x-8------------
-9-x-7-x-7-x-5-x-|-x-4-x-7-x-9------------
-----------------|------------------------
-----------------|------------------------
-----------------|------------------------

(There is a 3rd guitar part at the end of the Bridge 
I've not tabbed out)

Chorus
-----|---------------------------------------
-0-3-|-1-3-----------------------------------
-0-0-|-0-2-----------------------------------
-2-0-|-2-0-----------------------------------
-2-2-|-3-------------------------------------
-0-3-|---------------------------------------

The Middle 8 bit's really hard to work out so I'll leave it here...


Make MoneySearchLoginRegisterContact